  0
SECTION
  2
HEADER
  9
$ACADVER
  1
AC1009
  9
$INSBASE
 10
0.0
 20
0.0
 30
0.0
  9
$EXTMIN
 10
-450.02746372486871
 20
-673.91620263281231
 30
-0.0015258207003583
  9
$EXTMAX
 10
450.02746791582013
 20
664.16801378504169
 30
0.0000000349246037
  9
$LIMMIN
 10
0.0
 20
0.0
  9
$LIMMAX
 10
0.0
 20
0.0
  9
$ORTHOMODE
 70
     0
  9
$REGENMODE
 70
     1
  9
$FILLMODE
 70
     1
  9
$QTEXTMODE
 70
     0
  9
$MIRRTEXT
 70
     1
  9
$DRAGMODE
 70
     2
  9
$LTSCALE
 40
25.399999999999999
  9
$OSMODE
 70
   231
  9
$ATTMODE
 70
     1
  9
$TEXTSIZE
 40
0.0
  9
$TRACEWID
 40
1.0
  9
$TEXTSTYLE
  7
STANDARD
  9
$CLAYER
  8
DATA
  9
$CELTYPE
  6
BYLAYER
  9
$CECOLOR
 62
   256
  9
$DIMSCALE
 40
1.0
  9
$DIMASZ
 40
0.18
  9
$DIMEXO
 40
0.0625
  9
$DIMDLI
 40
0.38
  9
$DIMRND
 40
0.0
  9
$DIMDLE
 40
0.0
  9
$DIMEXE
 40
0.18
  9
$DIMTP
 40
0.0
  9
$DIMTM
 40
0.0
  9
$DIMTXT
 40
0.18
  9
$DIMCEN
 40
0.09
  9
$DIMTSZ
 40
0.0
  9
$DIMTOL
 70
     0
  9
$DIMLIM
 70
     0
  9
$DIMTIH
 70
     1
  9
$DIMTOH
 70
     1
  9
$DIMSE1
 70
     0
  9
$DIMSE2
 70
     0
  9
$DIMTAD
 70
     0
  9
$DIMZIN
 70
     0
  9
$DIMBLK
  1

  9
$DIMASO
 70
     1
  9
$DIMSHO
 70
     1
  9
$DIMPOST
  1

  9
$DIMAPOST
  1

  9
$DIMALT
 70
     0
  9
$DIMALTD
 70
     2
  9
$DIMALTF
 40
25.399999999999999
  9
$DIMLFAC
 40
1.0
  9
$DIMTOFL
 70
     0
  9
$DIMTVP
 40
0.0
  9
$DIMTIX
 70
     0
  9
$DIMSOXD
 70
     0
  9
$DIMSAH
 70
     0
  9
$DIMBLK1
  1

  9
$DIMBLK2
  1

  9
$DIMSTYLE
  2
STANDARD
  9
$DIMCLRD
 70
     0
  9
$DIMCLRE
 70
     0
  9
$DIMCLRT
 70
     0
  9
$DIMTFAC
 40
1.0
  9
$DIMGAP
 40
0.09
  9
$LUNITS
 70
     2
  9
$LUPREC
 70
     4
  9
$SKETCHINC
 40
0.1
  9
$FILLETRAD
 40
0.0
  9
$AUNITS
 70
     0
  9
$AUPREC
 70
     0
  9
$MENU
  1
acad
  9
$ELEVATION
 40
0.0
  9
$PELEVATION
 40
0.0
  9
$THICKNESS
 40
0.0
  9
$LIMCHECK
 70
     0
  9
$BLIPMODE
 70
     0
  9
$CHAMFERA
 40
0.0
  9
$CHAMFERB
 40
0.0
  9
$SKPOLY
 70
     0
  9
$TDCREATE
 40
2456136.7038541669
  9
$TDUPDATE
 40
2456136.7127688308
  9
$TDINDWG
 40
0.0003517593
  9
$TDUSRTIMER
 40
0.0003515856
  9
$USRTIMER
 70
     1
  9
$ANGBASE
 50
0.0
  9
$ANGDIR
 70
     0
  9
$PDMODE
 70
     1
  9
$PDSIZE
 40
-2.0
  9
$PLINEWID
 40
0.0
  9
$COORDS
 70
     2
  9
$SPLFRAME
 70
     0
  9
$SPLINETYPE
 70
     6
  9
$SPLINESEGS
 70
     8
  9
$ATTDIA
 70
     0
  9
$ATTREQ
 70
     1
  9
$HANDLING
 70
     1
  9
$HANDSEED
  5
24C
  9
$SURFTAB1
 70
     6
  9
$SURFTAB2
 70
     6
  9
$SURFTYPE
 70
     6
  9
$SURFU
 70
     6
  9
$SURFV
 70
     6
  9
$UCSNAME
  2

  9
$UCSORG
 10
0.0
 20
0.0
 30
0.0
  9
$UCSXDIR
 10
1.0
 20
0.0
 30
0.0
  9
$UCSYDIR
 10
0.0
 20
1.0
 30
0.0
  9
$PUCSNAME
  2

  9
$PUCSORG
 10
0.0
 20
0.0
 30
0.0
  9
$PUCSXDIR
 10
1.0
 20
0.0
 30
0.0
  9
$PUCSYDIR
 10
0.0
 20
1.0
 30
0.0
  9
$USERI1
 70
     0
  9
$USERI2
 70
     0
  9
$USERI3
 70
     0
  9
$USERI4
 70
     0
  9
$USERI5
 70
     0
  9
$USERR1
 40
0.0
  9
$USERR2
 40
0.0
  9
$USERR3
 40
0.0
  9
$USERR4
 40
0.0
  9
$USERR5
 40
0.0
  9
$WORLDVIEW
 70
     1
  9
$SHADEDGE
 70
     3
  9
$SHADEDIF
 70
    70
  9
$TILEMODE
 70
     1
  9
$MAXACTVP
 70
    64
  9
$PLIMCHECK
 70
     0
  9
$PEXTMIN
 10
1.0000000000000000E+020
 20
1.0000000000000000E+020
 30
1.0000000000000000E+020
  9
$PEXTMAX
 10
-1.0000000000000000E+020
 20
-1.0000000000000000E+020
 30
-1.0000000000000000E+020
  9
$PLIMMIN
 10
0.0
 20
0.0
  9
$PLIMMAX
 10
12.0
 20
9.0
  9
$UNITMODE
 70
     0
  9
$VISRETAIN
 70
     0
  9
$PLINEGEN
 70
     1
  9
$PSLTSCALE
 70
     0
  0
ENDSEC
  0
SECTION
  2
TABLES
  0
TABLE
  2
VPORT
 70
     1
  0
VPORT
  2
*ACTIVE
 70
     0
 10
0.0
 20
0.0
 11
1.0
 21
1.0
 12
0.0000020954755655
 22
-3.5318118909701748
 13
0.0
 23
0.0
 14
1.0
 24
1.0
 15
0.0
 25
0.0
 16
0.0
 26
0.0
 36
1.0
 17
0.0
 27
0.0
 37
0.0
 40
1345.9284265269409
 41
2.1881578947368419
 42
50.0
 43
0.0
 44
0.0
 50
0.0
 51
0.0
 71
     0
 72
  2000
 73
     1
 74
     1
 75
     0
 76
     0
 77
     0
 78
     0
  0
ENDTAB
  0
TABLE
  2
LTYPE
 70
    12
  0
LTYPE
  2
CONTINUOUS
 70
     0
  3
Solid line
 72
    65
 73
     0
 40
0.0
  0
LTYPE
  2
PHANTOM2
 70
     0
  3
___ _ _ ___ _ _ ___ _ _ ___ _ _
 72
    65
 73
     6
 40
1.25
 49
0.625
 49
-0.125
 49
0.125
 49
-0.125
 49
0.125
 49
-0.125
  0
LTYPE
  2
STYLE_05
 70
     0
  3

 72
    65
 73
     2
 40
0.208282470703125
 49
0.069427490234375
 49
-0.13885498046875
  0
ENDTAB
  0
TABLE
  2
LAYER
 70
     5
  0
LAYER
  2
0
 70
     0
 62
     7
  6
CONTINUOUS
  0
LAYER
  2
DATA
 70
     0
 62
     7
  6
CONTINUOUS
  0
LAYER
  2
HIBINO-BASE
 70
     0
 62
     7
  6
CONTINUOUS
  0
LAYER
  2
SPEC
 70
     0
 62
     7
  6
CONTINUOUS
  0
LAYER
  2
DIMNSIONS
 70
     0
 62
     7
  6
CONTINUOUS
  0
ENDTAB
  0
TABLE
  2
STYLE
 70
     3
  0
STYLE
  2
STANDARD
 70
     0
 40
0.0
 41
1.0
 50
0.0
 71
     0
 42
0.0
  3
txt
  4
BIGFONT.SHX
  0
ENDTAB
  0
TABLE
  2
VIEW
 70
     0
  0
ENDTAB
  0
TABLE
  2
UCS
 70
     0
  0
ENDTAB
  0
TABLE
  2
APPID
 70
     4
  0
APPID
  2
ACAD
 70
     0
  0
APPID
  2
ACADANNOTATIVE
 70
     0
  0
APPID
  2
ACAD_NAV_VCDISPLAY
 70
     0
  0
APPID
  2
ACAD_MLEADERVER
 70
     0
  0
ENDTAB
  0
TABLE
  2
DIMSTYLE
 70
     2
  0
DIMSTYLE
  2
STANDARD
 70
     0
  3

  4

  5

  6

  7

 40
1.0
 41
0.18
 42
0.0625
 43
0.38
 44
0.18
 45
0.0
 46
0.0
 47
0.0
 48
0.0
140
0.18
141
0.09
142
0.0
143
25.399999999999999
144
1.0
145
0.0
146
1.0
147
0.09
 71
     0
 72
     0
 73
     1
 74
     1
 75
     0
 76
     0
 77
     0
 78
     0
170
     0
171
     2
172
     0
173
     0
174
     0
175
     0
176
     0
177
     0
178
     0
  0
ENDTAB
  0
ENDSEC
  0
SECTION
  2
BLOCKS
  0
BLOCK
  8
0
  2
$MODEL_SPACE
 70
     0
 10
0.0
 20
0.0
 30
0.0
  3
$MODEL_SPACE
  1

  0
ENDBLK
  5
1DF
  8
0
  0
BLOCK
 67
     1
  8
0
  2
$PAPER_SPACE
 70
     0
 10
0.0
 20
0.0
 30
0.0
  3
$PAPER_SPACE
  1

  0
ENDBLK
  5
1DB
 67
     1
  8
0
  0
ENDSEC
  0
SECTION
  2
ENTITIES
  0
LINE
  5
2C
  8
HIBINO-BASE
  6
CONTINUOUS
 62
     7
 10
-450.0
 20
664.12725999999986
 30
0.0
 11
450.0
 21
664.12725999999986
 31
0.0
  0
LINE
  5
2D
  8
HIBINO-BASE
  6
CONTINUOUS
 62
     7
 10
450.0
 20
-635.87274000000002
 30
0.0
 11
-450.0
 21
-635.87274000000002
 31
0.0
  0
LINE
  5
2E
  8
HIBINO-BASE
  6
CONTINUOUS
 62
     7
 10
-450.0
 20
-635.87274000000002
 30
0.0
 11
-450.0
 21
664.12725999999986
 31
0.0
  0
TEXT
  5
2F
  8
HIBINO-BASE
 62
     7
 10
-414.07999999999993
 20
-667.91612899999984
 30
0.0
 40
18.00022089843749
  1
Hibino Corporation
 41
0.7
 11
-414.07999999999993
 21
-649.91590810156231
 31
0.0
 73
     3
  0
LINE
  5
30
  8
HIBINO-BASE
  6
CONTINUOUS
 62
     7
 10
450.0
 20
664.12725999999986
 30
0.0
 11
450.0
 21
-635.87274000000002
 31
0.0
  0
LINE
  5
31
  8
HIBINO-BASE
  6
CONTINUOUS
 62
     7
 10
0.0
 20
-523.37274000000002
 30
0.0
 11
450.0
 21
-523.37274000000002
 31
0.0
  0
LINE
  5
32
  8
HIBINO-BASE
  6
CONTINUOUS
 62
     7
 10
0.0
 20
-635.87274000000002
 30
0.0
 11
0.0
 21
-523.37274000000002
 31
0.0
  0
TEXT
  5
33
  8
HIBINO-BASE
 62
     7
 10
4.4999999999999991
 20
-535.91620666666665
 30
0.0
 40
8.1442057291666661
  1
NOTE
 41
0.7
 11
4.5
 21
-527.77200093750002
 31
0.0
 73
     3
  0
LINE
  5
34
  8
HIBINO-BASE
  6
CONTINUOUS
 62
     7
 10
175.0
 20
-635.87274000000002
 30
0.0
 11
175.0
 21
-523.37274000000002
 31
0.0
  0
TEXT
  5
35
  8
HIBINO-BASE
 62
     7
 10
179.5
 20
-535.91620666666665
 30
0.0
 40
8.1442057291666661
  1
TITLE
 41
0.7
 11
179.5
 21
-527.77200093750002
 31
0.0
 73
     3
  0
TEXT
  5
36
  8
HIBINO-BASE
 62
     7
 10
250.34195
 20
-667.91612899999984
 30
0.0
 40
18.00022089843749
  1
ヒビノ株式会社
 41
0.7
 11
250.34195
 21
-649.91590810156231
 31
0.0
 73
     3
  0
LINE
  5
37
  8
HIBINO-BASE
  6
CONTINUOUS
 62
     7
 10
0.0
 20
-585.87274000000002
 30
0.0
 11
450.0
 21
-585.87274000000002
 31
0.0
  0
TEXT
  5
38
  8
HIBINO-BASE
 62
     7
 10
242.0
 20
-598.13460666666663
 30
0.0
 40
8.1442057291666661
  1
DRAWN
 41
0.7
 11
242.0
 21
-589.99040093749989
 31
0.0
 73
     3
  0
TEXT
  5
39
  8
HIBINO-BASE
 62
     7
 10
117.0
 20
-598.13460666666663
 30
0.0
 40
8.1442057291666661
  1
DATE
 41
0.7
 11
117.0
 21
-589.99040093749989
 31
0.0
 73
     3
  0
TEXT
  5
3A
  8
HIBINO-BASE
 62
     7
 10
67.0
 20
-598.13460666666663
 30
0.0
 40
8.1442057291666661
  1
SCALE
 41
0.7
 11
67.0
 21
-589.99040093749989
 31
0.0
 73
     3
  0
TEXT
  5
3B
  8
HIBINO-BASE
 62
     7
 10
179.5
 20
-598.13460666666663
 30
0.0
 40
8.1442057291666661
  1
DESIGN
 41
0.7
 11
179.5
 21
-589.99040093749989
 31
0.0
 73
     3
  0
TEXT
  5
3C
  8
HIBINO-BASE
 62
     7
 10
367.0
 20
-598.13460666666663
 30
0.0
 40
8.1442057291666661
  1
DRAWING NO.
 41
0.7
 11
367.0
 21
-589.99040093749989
 31
0.0
 73
     3
  0
TEXT
  5
3D
  8
HIBINO-BASE
 62
     7
 10
304.49999999999989
 20
-598.13460666666663
 30
0.0
 40
8.1442057291666661
  1
CHECK
 41
0.7
 11
304.49999999999989
 21
-589.99040093749989
 31
0.0
 73
     3
  0
LINE
  5
3E
  8
HIBINO-BASE
  6
CONTINUOUS
 62
     7
 10
71.874999999999986
 20
-629.62274000000002
 30
0.0
 11
90.625
 21
-610.87274000000002
 31
0.0
  0
TEXT
  5
3F
  8
HIBINO-BASE
 62
     7
 10
68.749999999999986
 20
-616.41745666666645
 30
0.0
 40
8.1442057291666661
  1
1
 41
0.7
 11
68.749999999999986
 21
-608.27325093749982
 31
0.0
 73
     3
  0
LINE
  5
40
  8
HIBINO-BASE
  6
CONTINUOUS
 62
     7
 10
62.5
 20
-635.87274000000002
 30
0.0
 11
62.5
 21
-585.87274000000002
 31
0.0
  0
LINE
  5
41
  8
HIBINO-BASE
  6
CONTINUOUS
 62
     7
 10
112.5
 20
-635.87274000000002
 30
0.0
 11
112.5
 21
-585.87274000000002
 31
0.0
  0
LINE
  5
42
  8
HIBINO-BASE
  6
CONTINUOUS
 62
     7
 10
237.5
 20
-585.87274000000002
 30
0.0
 11
237.5
 21
-635.87274000000002
 31
0.0
  0
LINE
  5
43
  8
HIBINO-BASE
  6
CONTINUOUS
 62
     7
 10
362.5
 20
-585.87274000000002
 30
0.0
 11
362.5
 21
-635.87274000000002
 31
0.0
  0
LINE
  5
44
  8
HIBINO-BASE
  6
CONTINUOUS
 62
     7
 10
300.0
 20
-635.87274000000002
 30
0.0
 11
300.0
 21
-585.87274000000002
 31
0.0
  0
TEXT
  5
45
  8
HIBINO-BASE
 62
     7
 10
116.78270000000001
 20
-621.55450666666638
 30
0.0
 40
8.1442057291666661
  1
'12.07.
 41
0.7
 11
116.78270000000001
 21
-613.41030093749987
 31
0.0
 73
     3
  0
TEXT
  5
46
  8
HIBINO-BASE
 62
     7
 10
87.5
 20
-625.79245666666645
 30
0.0
 40
8.1442057291666661
  1
5
 41
0.7
 11
87.5
 21
-617.64825093749982
 31
0.0
 73
     3
  0
TEXT
  5
47
  8
HIBINO-BASE
 62
     7
 10
245.02905005517309
 20
-621.55450666666638
 30
0.0
 40
8.1442057291666661
  1
Ootake
 41
0.7
 11
245.02905005517309
 21
-613.41030093749987
 31
0.0
 73
     3
  0
TEXT
  5
48
  8
HIBINO-BASE
 62
     7
 10
19.416666666666739
 20
-625.99274000000014
 30
0.0
 40
16.288411458333329
  1
A4
 41
0.7
 11
19.416666666666739
 21
-609.70432854166665
 31
0.0
 73
     3
  0
TEXT
  5
49
  8
HIBINO-BASE
 62
     7
 10
4.791666666666659
 20
-598.97001499999965
 30
0.0
 40
8.1442057291666661
  1
PAPER SIZE
 41
0.7
 11
4.7916666666666599
 21
-590.82580927083313
 31
0.0
 73
     3
  0
TEXT
  5
4A
  8
SPEC
 62
     7
 10
-406.25
 20
621.09361000000001
 30
0.0
 40
12.21630859375
  1
仕様
 41
0.7
 11
-406.25
 21
633.3099185937499
 31
0.0
 73
     3
  0
LINE
  5
4B
  8
SPEC
  6
CONTINUOUS
 62
     7
 10
-412.5
 20
614.12725999999986
 30
0.0
 11
324.99704999999977
 21
614.12725999999986
 31
0.0
  0
LINE
  5
4C
  8
SPEC
  6
CONTINUOUS
 62
     7
 10
-412.5
 20
595.37733499999979
 30
0.0
 11
324.99704999999977
 21
595.37733499999979
 31
0.0
  0
LINE
  5
4D
  8
SPEC
  6
CONTINUOUS
 62
     7
 10
-412.5
 20
520.37763500000005
 30
0.0
 11
324.99704999999977
 21
520.37763500000005
 31
0.0
  0
LINE
  5
4E
  8
SPEC
  6
CONTINUOUS
 62
     7
 10
-412.5
 20
539.1275599999999
 30
0.0
 11
324.99704999999977
 21
539.1275599999999
 31
0.0
  0
LINE
  5
4F
  8
SPEC
  6
CONTINUOUS
 62
     7
 10
-412.5
 20
557.87748499999998
 30
0.0
 11
324.99704999999977
 21
557.87748499999998
 31
0.0
  0
LINE
  5
50
  8
SPEC
  6
CONTINUOUS
 62
     7
 10
-412.5
 20
501.62770999999992
 30
0.0
 11
324.99704999999977
 21
501.62770999999992
 31
0.0
  0
LINE
  5
51
  8
SPEC
  6
CONTINUOUS
 62
     7
 10
-412.5
 20
576.62741000000017
 30
0.0
 11
324.99704999999977
 21
576.62741000000017
 31
0.0
  0
TEXT
  5
52
  8
SPEC
 62
     7
 10
-246.96044452779111
 20
599.83658868393331
 30
0.0
 40
9.5015182437749992
  1
コンデンサー型 
 41
0.7
 11
-246.96044452779111
 21
609.33810692770817
 31
0.0
 73
     3
  0
LINE
  5
53
  8
SPEC
  6
CONTINUOUS
 62
     7
 10
-412.5
 20
614.12725999999986
 30
0.0
 11
-412.5
 21
370.37823500000007
 31
0.0
  0
LINE
  5
54
  8
SPEC
  6
CONTINUOUS
 62
     7
 10
-250.00065000000009
 20
614.12725999999986
 30
0.0
 11
-250.00065000000009
 21
370.37823500000002
 31
0.0
  0
TEXT
  5
55
  8
SPEC
 62
     7
 10
-408.05199517177772
 20
525.08074100601334
 30
0.0
 40
9.5015182437749992
  1
最大音圧レベル
 41
0.7
 11
-408.05199517177772
 21
534.58225924978819
 31
0.0
 73
     3
  0
TEXT
  5
56
  8
SPEC
 62
     7
 10
-408.39453499235651
 20
600.08533544406077
 30
0.0
 40
9.5015182437749992
  1
形式
 41
0.7
 11
-408.39453499235651
 21
609.58685368783586
 31
0.0
 73
     3
  0
TEXT
  5
57
  8
SPEC
 62
     7
 10
-408.54643112699517
 20
543.88920864259455
 30
0.0
 40
9.5015182437749992
  1
開回路感度
 41
0.7
 11
-408.54643112699517
 21
553.39072688636963
 31
0.0
 73
     3
  0
TEXT
  5
58
  8
SPEC
 62
     7
 10
-408.15539128848218
 20
505.89456478198628
 30
0.0
 40
9.5015182437749992
  1
等価雑音レベル
 41
0.7
 11
-408.15539128848218
 21
515.39608302576141
 31
0.0
 73
     3
  0
TEXT
  5
59
  8
SPEC
 62
     7
 10
-408.25492582504188
 20
581.35133401092821
 30
0.0
 40
9.5015182437749992
  1
指向特性
 41
0.7
 11
-408.25492582504188
 21
590.85285225470307
 31
0.0
 73
     3
  0
TEXT
  5
5A
  8
SPEC
 62
     7
 10
-408.05224431295778
 20
562.794590009236
 30
0.0
 40
9.5015182437749992
  1
周波数特性
 41
0.7
 11
-408.05224431295778
 21
572.29610825301086
 31
0.0
 73
     3
  0
TEXT
  5
5B
  8
SPEC
 62
     7
 10
-245.5006680000001
 20
524.31722724156805
 30
0.0
 40
9.5015182437749992
  1
125dB SPL(THD 1%%%)
 41
0.7
 11
-245.5006680000001
 21
533.81874548534313
 31
0.0
 73
     3
  0
TEXT
  5
5C
  8
SPEC
 62
     7
 10
-245.19871036163741
 20
544.08642584006395
 30
0.0
 40
9.5015182437749992
  1
-38dB re 1V/Pa
 41
0.7
 11
-245.19871036163741
 21
553.58794408383892
 31
0.0
 73
     3
  0
TEXT
  5
5D
  8
SPEC
 62
     7
 10
-245.5006680000001
 20
505.68080741298343
 30
0.0
 40
9.5015182437749992
  1
21dB SPL(Aウェイト)
 41
0.7
 11
-245.5006680000001
 21
515.18232565675839
 31
0.0
 73
     3
  0
TEXT
  5
5E
  8
SPEC
 62
     7
 10
-245.72659540931431
 20
562.26893206019645
 30
0.0
 40
9.5015182437749992
  1
50Hz～19kHz
 41
0.7
 11
-245.72659540931431
 21
571.77045030397153
 31
0.0
 73
     3
  0
TEXT
  5
5F
  8
SPEC
 62
     7
 10
-246.54996632858879
 20
581.28954079598213
 30
0.0
 40
9.5015182437749992
  1
ハイパーカーディオイド
 41
0.7
 11
-246.54996632858879
 21
590.7910590397571
 31
0.0
 73
     3
  0
LINE
  5
60
  8
SPEC
  6
CONTINUOUS
 62
     7
 10
-412.5
 20
482.87778500000002
 30
0.0
 11
324.99704999999977
 21
482.87778500000002
 31
0.0
  0
LINE
  5
61
  8
SPEC
  6
CONTINUOUS
 62
     7
 10
-412.5
 20
464.12785999999988
 30
0.0
 11
324.99704999999977
 21
464.12785999999988
 31
0.0
  0
LINE
  5
62
  8
SPEC
  6
CONTINUOUS
 62
     7
 10
-412.5
 20
445.37793499999992
 30
0.0
 11
324.99704999999977
 21
445.37793499999992
 31
0.0
  0
TEXT
  5
63
  8
SPEC
 62
     7
 10
-409.97629666104962
 20
487.97576014317571
 30
0.0
 40
9.5015182437749992
  1
ローカットフィルイター
 41
0.7
 11
-409.97629666104962
 21
497.47727838695067
 31
0.0
 73
     3
  0
TEXT
  5
64
  8
SPEC
 62
     7
 10
-246.18169902849041
 20
487.04772339156892
 30
0.0
 40
9.5015182437749992
  1
150Hz(12dB/oct)*ジャンパーで設定
 41
0.7
 11
-246.18169902849041
 21
496.54924163534389
 31
0.0
 73
     3
  0
LINE
  5
65
  8
SPEC
  6
CONTINUOUS
 62
     7
 10
-412.5
 20
426.62801000000002
 30
0.0
 11
324.99704999999977
 21
426.62801000000002
 31
0.0
  0
TEXT
  5
66
  8
SPEC
 62
     7
 10
-408.13084991924927
 20
375.42699970392471
 30
0.0
 40
9.5015353444010398
  1
付属品
 41
0.7
 11
-408.13084991924927
 21
384.92853504832573
 31
0.0
 73
     3
  0
TEXT
  5
67
  8
SPEC
 62
     7
 10
-408.44192116817283
 20
413.32196114712411
 30
0.0
 40
9.5015353444010398
  1
寸法
 41
0.7
 11
-408.44192116817283
 21
422.82349649152508
 31
0.0
 73
     3
  0
TEXT
  5
68
  8
SPEC
 62
     7
 10
-408.32594709809598
 20
393.8636762185472
 30
0.0
 40
9.5015353444010398
  1
重量
 41
0.7
 11
-408.32594709809598
 21
403.36521156294822
 31
0.0
 73
     3
  0
TEXT
  5
69
  8
SPEC
 62
     7
 10
-246.70907414636849
 20
374.89106682280709
 30
0.0
 40
9.5015353444010398
  1
ウインドスクリーン
 41
0.7
 11
-246.70907414636849
 21
384.39260216720822
 31
0.0
 73
     3
  0
TEXT
  5
6A
  8
SPEC
 62
     7
 10
-246.22421635291261
 20
412.4573471158559
 30
0.0
 40
9.5015353444010398
  1
19\U+03A6\U+00D7585mm(突起部含まず)
 41
0.7
 11
-246.22421635291261
 21
421.95888246025697
 31
0.0
 73
     3
  0
TEXT
  5
6B
  8
SPEC
 62
     7
 10
-245.7033604545577
 20
393.87644442962369
 30
0.0
 40
9.5015353444010398
  1
約170g
 41
0.7
 11
-245.7033604545577
 21
403.37797977402471
 31
0.0
 73
     3
  0
LINE
  5
6C
  8
SPEC
  6
CONTINUOUS
 62
     7
 10
-412.5
 20
407.878085
 30
0.0
 11
324.99704999999977
 21
407.878085
 31
0.0
  0
LINE
  5
6D
  8
SPEC
  6
CONTINUOUS
 62
     7
 10
-412.5
 20
389.12815999999998
 30
0.0
 11
324.99704999999977
 21
389.12815999999998
 31
0.0
  0
LINE
  5
6E
  8
SPEC
  6
CONTINUOUS
 62
     7
 10
-412.5
 20
370.37823500000002
 30
0.0
 11
324.99704999999977
 21
370.37823500000002
 31
0.0
  0
TEXT
  5
6F
  8
SPEC
 62
     7
 10
-409.97629666104962
 20
469.34622078695298
 30
0.0
 40
9.5015182437749992
  1
インピーダンス
 41
0.7
 11
-409.97629666104962
 21
478.84773903072812
 31
0.0
 73
     3
  0
TEXT
  5
70
  8
SPEC
 62
     7
 10
-246.18169902849041
 20
468.34959082418902
 30
0.0
 40
9.5015182437749992
  1
600\U+03A9以下
 41
0.7
 11
-246.18169902849041
 21
477.85110906796399
 31
0.0
 73
     3
  0
TEXT
  5
71
  8
SPEC
 62
     7
 10
-409.97629666104962
 20
450.43501220565469
 30
0.0
 40
9.5015182437749992
  1
電源
 41
0.7
 11
-409.97629666104962
 21
459.93653044942971
 31
0.0
 73
     3
  0
TEXT
  5
72
  8
SPEC
 62
     7
 10
-246.18169902849041
 20
449.86627271472292
 30
0.0
 40
9.5015182437749992
  1
ファンタムDC9V～52V/3mA以下
 41
0.7
 11
-246.18169902849041
 21
459.36779095849801
 31
0.0
 73
     3
  0
LINE
  5
73
  8
SPEC
  6
CONTINUOUS
 62
     7
 10
324.99704999999977
 20
614.12725999999986
 30
0.0
 11
324.99704999999977
 21
370.37823500000002
 31
0.0
  0
TEXT
  5
74
  8
SPEC
 62
     7
 10
-409.97629666104962
 20
431.72511854348642
 30
0.0
 40
9.5015182437749992
  1
コネクター
 41
0.7
 11
-409.97629666104962
 21
441.22663678726138
 31
0.0
 73
     3
  0
TEXT
  5
75
  8
SPEC
 62
     7
 10
-246.18169902849041
 20
430.9176658822617
 30
0.0
 40
9.5015182437749992
  1
XLR3ピン
 41
0.7
 11
-246.18169902849041
 21
440.41918412603678
 31
0.0
 73
     3
  0
TEXT
  5
76
  8
DIMNSIONS
 62
     7
 10
-100.0
 20
-574.52528999999993
 30
0.0
 40
12.21630859375
  1
(単位：mm)
 41
0.7
 11
-100.0
 21
-562.30898140624993
 31
0.0
 73
     3
  0
LINE
  5
77
  8
DIMNSIONS
  6
CONTINUOUS
 62
     7
 10
-189.99999999979761
 20
-419.99999999995578
 30
0.0
 11
-250.0
 21
-419.99999999995578
 31
0.0
  0
LINE
  5
78
  8
DIMNSIONS
  6
CONTINUOUS
 62
     7
 10
-180.49999999979761
 20
165.000000000044
 30
0.0
 11
-250.0
 21
165.000000000044
 31
0.0
  0
LINE
  5
79
  8
DIMNSIONS
  6
CONTINUOUS
 62
     7
 10
-240.0
 20
-419.99999999995578
 30
0.0
 11
-240.0
 21
165.000000000044
 31
0.0
  0
LINE
  5
7A
  8
DIMNSIONS
  6
CONTINUOUS
 62
     7
 10
-240.0
 20
-419.99999999995578
 30
0.0
 11
-243.3501989757512
 21
-407.49688720698708
 31
0.0
  0
LINE
  5
7B
  8
DIMNSIONS
  6
CONTINUOUS
 62
     7
 10
-240.0
 20
-419.99999999995578
 30
0.0
 11
-236.6498010242488
 21
-407.49688720698708
 31
0.0
  0
LINE
  5
7C
  8
DIMNSIONS
  6
CONTINUOUS
 62
     7
 10
-240.0
 20
165.000000000044
 30
0.0
 11
-236.6498010242488
 21
152.4968872070753
 31
0.0
  0
LINE
  5
7D
  8
DIMNSIONS
  6
CONTINUOUS
 62
     7
 10
-240.0
 20
165.000000000044
 30
0.0
 11
-243.3501989757512
 21
152.4968872070753
 31
0.0
  0
TEXT
  5
7E
  8
DIMNSIONS
 62
     7
 10
-244.96944451803969
 20
-140.7291666666226
 30
0.0
 40
13.573676619804891
  1
585
 50
90.0
 41
0.7
 11
-258.54312113784448
 21
-140.7291666666226
 31
0.0
 73
     3
  0
LINE
  5
7F
  8
DIMNSIONS
  6
CONTINUOUS
 62
     7
 10
-177.68112149607131
 20
-456.3395929315858
 30
0.0
 11
-205.0
 21
-480.0
 31
0.0
  0
LINE
  5
80
  8
DIMNSIONS
  6
CONTINUOUS
 62
     7
 10
-177.68112149607131
 20
-456.3395929315858
 30
0.0
 11
-184.91941221657439
 21
-467.07080023255162
 31
0.0
  0
LINE
  5
81
  8
DIMNSIONS
  6
CONTINUOUS
 62
     7
 10
-177.68112149607131
 20
-456.3395929315858
 30
0.0
 11
-189.31526879048701
 21
-462.01394570724767
 31
0.0
  0
LINE
  5
82
  8
DIMNSIONS
  6
CONTINUOUS
 62
     7
 10
-205.0
 20
-480.0
 30
0.0
 11
-250.27777777777769
 21
-480.0
 31
0.0
  0
TEXT
  5
83
  8
DIMNSIONS
 62
     7
 10
-250.27777777777769
 20
-475.03055548196028
 30
0.0
 40
13.573676619804891
  1
\U+03C619
 41
0.7
 11
-250.27777777777769
 21
-461.45687886215541
 31
0.0
 73
     3
  0
LINE
  5
84
  8
DIMNSIONS
  6
CONTINUOUS
 62
     7
 10
-175.91522352883709
 20
214.1128279967559
 30
0.0
 11
-210.0
 21
240.0
 31
0.0
  0
LINE
  5
85
  8
DIMNSIONS
  6
CONTINUOUS
 62
     7
 10
-175.91522352883709
 20
214.1128279967559
 30
0.0
 11
-187.83039930729981
 21
219.1705200454239
 31
0.0
  0
LINE
  5
86
  8
DIMNSIONS
  6
CONTINUOUS
 62
     7
 10
-175.91522352883709
 20
214.1128279967559
 30
0.0
 11
-183.70522241920881
 21
224.45050568465231
 31
0.0
  0
LINE
  5
87
  8
DIMNSIONS
  6
CONTINUOUS
 62
     7
 10
-210.0
 20
240.0
 30
0.0
 11
-272.91666666666669
 21
240.0
 31
0.0
  0
TEXT
  5
88
  8
DIMNSIONS
 62
     7
 10
-272.91666666666669
 20
244.96944451803969
 30
0.0
 40
13.573676619804891
  1
\U+03C613.6
 41
0.7
 11
-272.91666666666669
 21
258.54312113784448
 31
0.0
 73
     3
  0
TEXT
  5
89
  8
DATA
 62
     7
 10
250.0
 20
-580.2182899999998
 30
0.0
 40
12.21630859375
  1
CGN 99 H/L
 41
0.7
 11
250.0
 21
-568.0019814062498
 31
0.0
 73
     3
  0
TEXT
  5
8A
  8
DATA
 62
     7
 10
250.0
 20
-543.96828999999991
 30
0.0
 40
12.21630859375
  1
AKG
 41
0.7
 11
250.0
 21
-531.75198140624991
 31
0.0
 73
     3
  0
TEXT
  5
8B
  8
DATA
 62
     7
 10
240.9734372521313
 20
-561.10505915829083
 30
0.0
 40
8.1442185546874981
  1
グースネック・マイクロホン
 41
0.7
 11
240.9734372521313
 21
-552.96084060360317
 31
0.0
 73
     3
  0
TEXT
  5
8C
  8
DATA
 62
     7
 10
-400.0
 20
-614.68273999999985
 30
0.0
 40
8.1442057291666661
  1
仕様および外観は予告なく変更されることがありますので、ご了承ください。
 41
0.7
 11
-400.0
 21
-606.53853427083334
 31
0.0
 73
     3
  0
LINE
  5
8D
  8
DATA
  6
CONTINUOUS
 62
     7
 10
-179.99999999979761
 20
-419.99999999995578
 30
0.0
 11
-179.99999999979761
 21
-354.03015018272379
 31
0.0
  0
LINE
  5
8E
  8
DATA
  6
CONTINUOUS
 62
     7
 10
-160.99999999979769
 20
-419.99999999995578
 30
0.0
 11
-179.99999999979761
 21
-419.99999999995578
 31
0.0
  0
LINE
  5
8F
  8
DATA
  6
CONTINUOUS
 62
     7
 10
-173.49999999979761
 20
-246.99999999995569
 30
0.0
 11
-173.49999999979761
 21
-310.99999999995578
 31
0.0
  0
LINE
  5
90
  8
DATA
  6
CONTINUOUS
 62
     7
 10
-167.49999999979769
 20
-246.9999999999558
 30
0.0
 11
-167.49999999979769
 21
-310.99999999995578
 31
0.0
  0
CIRCLE
  5
91
  8
DATA
  6
CONTINUOUS
 62
     7
 10
-170.49999999979769
 20
-450.1201480965741
 30
0.0
 40
9.4999999999999112
  0
ARC
  5
92
  8
DATA
  6
CONTINUOUS
 62
     7
 10
-170.4999999997986
 20
-450.12014809657541
 30
0.0
 40
8.0000000000016307
 50
65.640235005786508
 51
48.689305883291162
  0
CIRCLE
  5
93
  8
DATA
  6
CONTINUOUS
 62
     7
 10
-174.49999999979761
 20
-450.1201480965741
 30
0.0
 40
1.200000000000045
  0
CIRCLE
  5
94
  8
DATA
  6
CONTINUOUS
 62
     7
 10
-170.49999999979769
 20
-454.1201480965741
 30
0.0
 40
1.2000000000000171
  0
CIRCLE
  5
95
  8
DATA
  6
CONTINUOUS
 62
     7
 10
-166.49999999979769
 20
-450.1201480965741
 30
0.0
 40
1.200000000000045
  0
ARC
  5
96
  8
DATA
  6
CONTINUOUS
 62
     7
 10
-166.33051954436371
 20
-443.65910900744183
 30
0.0
 40
1.199999999999974
 50
337.87719435964777
 51
136.45234652942901
  0
ARC
  5
97
  8
DATA
  6
CONTINUOUS
 62
     7
 10
-170.49999999979769
 20
-445.249999999956
 30
0.0
 40
4.8701480966185358
 50
64.493439204739815
 51
115.5065607952602
  0
LINE
  5
98
  8
DATA
  6
CONTINUOUS
 62
     7
 10
-175.0999999997976
 20
-310.99999999995578
 30
0.0
 11
-165.8999999997977
 21
-310.99999999995578
 31
0.0
  0
CIRCLE
  5
99
  8
DATA
  6
CONTINUOUS
 62
     7
 10
-170.49999999979769
 20
-402.99999999995578
 30
0.0
 40
2.1500000000000048
  0
LINE
  5
9A
  8
DATA
  6
CONTINUOUS
 62
     7
 10
-171.2128925498229
 20
-402.99999999995578
 30
0.0
 11
-169.78710744977241
 21
-402.99999999995578
 31
0.0
  0
LINE
  5
9B
  8
DATA
  6
CONTINUOUS
 62
     7
 10
-170.49999999979769
 20
-403.71289254998112
 30
0.0
 11
-170.49999999979769
 21
-402.28710744993049
 31
0.0
  0
LINE
  5
9C
  8
DATA
  6
CONTINUOUS
 62
     7
 10
-179.5949751215974
 20
-345.99025370577442
 30
0.0
 11
-179.09097052673599
 21
-341.0006082166459
 31
0.0
  0
ARC
  5
9D
  8
DATA
  6
CONTINUOUS
 62
     7
 10
-990.14499999975999
 20
-202.25727272723569
 30
0.0
 40
822.76716188040632
 50
350.43111332651512
 51
351.41338444162358
  0
ARC
  5
9E
  8
DATA
  6
CONTINUOUS
 62
     7
 10
-234.95357142836781
 20
-311.13214285709881
 30
0.0
 40
60.002002730179761
 50
346.53862234905949
 51
355.9690531258301
  0
LINE
  5
9F
  8
DATA
  6
CONTINUOUS
 62
     7
 10
-175.0999999997976
 20
-315.3499999999558
 30
0.0
 11
-175.0999999997976
 21
-310.99999999995578
 31
0.0
  0
ARC
  5
A0
  8
DATA
  6
CONTINUOUS
 62
     7
 10
-149.24285485609329
 20
-344.01556939549857
 30
0.0
 40
29.99999999996751
 50
170.43111332651091
 51
174.23211110208581
  0
ARC
  5
A1
  8
DATA
  6
CONTINUOUS
 62
     7
 10
-99.999999999797922
 20
-354.03015018272379
 30
0.0
 40
79.999999999999659
 50
174.2321111020859
 51
180.0
  0
LINE
  5
A2
  8
DATA
  6
CONTINUOUS
 62
     7
 10
-160.99999999979769
 20
-419.99999999995578
 30
0.0
 11
-160.99999999979769
 21
-354.03015018272379
 31
0.0
  0
LINE
  5
A3
  8
DATA
  6
CONTINUOUS
 62
     7
 10
-161.4050248779979
 20
-345.99025370577442
 30
0.0
 11
-161.90902947285929
 21
-341.0006082166459
 31
0.0
  0
ARC
  5
A4
  8
DATA
  6
CONTINUOUS
 62
     7
 10
649.14500000016631
 20
-202.25727272723569
 30
0.0
 40
822.76716188040803
 50
188.58661555837639
 51
189.56888667348491
  0
ARC
  5
A5
  8
DATA
  6
CONTINUOUS
 62
     7
 10
-106.04642857122769
 20
-311.13214285709881
 30
0.0
 40
60.002002730179562
 50
184.0309468741699
 51
193.46137765094051
  0
LINE
  5
A6
  8
DATA
  6
CONTINUOUS
 62
     7
 10
-165.8999999997977
 20
-315.3499999999558
 30
0.0
 11
-165.8999999997977
 21
-310.99999999995578
 31
0.0
  0
ARC
  5
A7
  8
DATA
  6
CONTINUOUS
 62
     7
 10
-191.75714514350199
 20
-344.01556939549857
 30
0.0
 40
29.999999999967589
 50
5.767888897914121
 51
9.5688866734891391
  0
ARC
  5
A8
  8
DATA
  6
CONTINUOUS
 62
     7
 10
-240.99999999979761
 20
-354.03015018272379
 30
0.0
 40
79.999999999999844
 50
0.0000000000000568
 51
5.7678888979140748
  0
LINE
  5
A9
  8
DATA
  6
CONTINUOUS
 62
     7
 10
-175.29999999979759
 20
-246.9999999999558
 30
0.0
 11
-165.6999999997976
 21
-246.9999999999558
 31
0.0
  0
LINE
  5
AA
  8
DATA
  6
CONTINUOUS
 62
     7
 10
-173.49999999979761
 20
-216.9999999999558
 30
0.0
 11
-167.49999999979769
 21
-216.9999999999558
 31
0.0
  0
LINE
  5
AB
  8
DATA
  6
CONTINUOUS
 62
     7
 10
-175.29999999979759
 20
-246.9999999999558
 30
0.0
 11
-175.29999999979759
 21
-241.9999999999558
 31
0.0
  0
LINE
  5
AC
  8
DATA
  6
CONTINUOUS
 62
     7
 10
-165.6999999997976
 20
-246.9999999999558
 30
0.0
 11
-165.6999999997976
 21
-241.9999999999558
 31
0.0
  0
ARC
  5
AD
  8
DATA
  6
CONTINUOUS
 62
     7
 10
-14.25619469006651
 20
-241.0303539822564
 30
0.0
 40
161.04672440642261
 50
171.418646421874
 51
180.34497417014839
  0
LINE
  5
AE
  8
DATA
  6
CONTINUOUS
 62
     7
 10
-165.6999999997976
 20
-246.9999999999558
 30
0.0
 11
-165.6999999997976
 21
-241.9999999999558
 31
0.0
  0
ARC
  5
AF
  8
DATA
  6
CONTINUOUS
 62
     7
 10
-326.74380530952959
 20
-241.0303539822564
 30
0.0
 40
161.04672440642329
 50
359.65502582985152
 51
8.5813535781259702
  0
LINE
  5
B0
  8
DATA
  6
CONTINUOUS
 62
     7
 10
-173.49999999979761
 20
122.0000000000441
 30
0.0
 11
-167.49999999979769
 21
122.0000000000441
 31
0.0
  0
LINE
  5
B1
  8
DATA
  6
CONTINUOUS
 62
     7
 10
-173.49999999979761
 20
-216.9999999999558
 30
0.0
 11
-173.49999999979761
 21
122.0000000000441
 31
0.0
  0
LINE
  5
B2
  8
DATA
  6
CONTINUOUS
 62
     7
 10
-167.49999999979769
 20
122.0000000000441
 30
0.0
 11
-167.49999999979769
 21
-216.9999999999558
 31
0.0
  0
LINE
  5
B3
  8
DATA
  6
CONTINUOUS
 62
     7
 10
-177.29999999979759
 20
158.000000000044
 30
0.0
 11
-163.69999999979771
 21
158.000000000044
 31
0.0
  0
ARC
  5
B4
  8
DATA
  6
CONTINUOUS
 62
     7
 10
-170.49999999979769
 20
158.1971428571868
 30
0.0
 40
6.8028571428570963
 50
358.33936902748439
 51
40.147715681512643
  0
ARC
  5
B5
  8
DATA
  6
CONTINUOUS
 62
     7
 10
-170.49999999979769
 20
158.1971428571868
 30
0.0
 40
6.8028571428571372
 50
57.051217221527352
 51
71.131724005769911
  0
ARC
  5
B6
  8
DATA
  6
CONTINUOUS
 62
     7
 10
-170.49999999979769
 20
158.1971428571868
 30
0.0
 40
6.8028571428571558
 50
84.093928529041449
 51
95.906071470958068
  0
ARC
  5
B7
  8
DATA
  6
CONTINUOUS
 62
     7
 10
-170.49999999979769
 20
158.1971428571868
 30
0.0
 40
6.802857142857107
 50
108.86827599422961
 51
122.94878277847219
  0
ARC
  5
B8
  8
DATA
  6
CONTINUOUS
 62
     7
 10
-170.49999999979769
 20
158.1971428571868
 30
0.0
 40
6.8028571428571079
 50
139.85228431848711
 51
181.66063097251561
  0
LINE
  5
B9
  8
DATA
  6
CONTINUOUS
 62
     7
 10
-177.29999999979751
 20
157.60000000004399
 30
0.0
 11
-163.69999999979771
 21
157.60000000004399
 31
0.0
  0
ARC
  5
BA
  8
DATA
  6
CONTINUOUS
 62
     7
 10
-1461.0234374995041
 20
63.608593750058823
 30
0.0
 40
1288.846832806332
 50
2.5966830274776962
 51
3.656306022186429
  0
ARC
  5
BB
  8
DATA
  6
CONTINUOUS
 62
     7
 10
-220.9342665171547
 20
142.19062150060401
 30
0.0
 40
46.275243492030938
 50
4.4735025052547632
 51
19.450600290077549
  0
LINE
  5
BC
  8
DATA
  6
CONTINUOUS
 62
     7
 10
-176.9789091149749
 20
158.000000000044
 30
0.0
 11
-176.9789091149749
 21
157.60000000004399
 31
0.0
  0
ARC
  5
BD
  8
DATA
  6
CONTINUOUS
 62
     7
 10
1120.02343749991
 20
63.608593750058823
 30
0.0
 40
1288.8468328063329
 50
176.34369397781359
 51
177.4033169725223
  0
ARC
  5
BE
  8
DATA
  6
CONTINUOUS
 62
     7
 10
-120.06573348244081
 20
142.19062150060401
 30
0.0
 40
46.275243492030768
 50
160.54939970992231
 51
175.5264974947452
  0
LINE
  5
BF
  8
DATA
  6
CONTINUOUS
 62
     7
 10
-164.02109088462041
 20
158.000000000044
 30
0.0
 11
-164.02109088462041
 21
157.60000000004399
 31
0.0
  0
ARC
  5
C0
  8
DATA
  6
CONTINUOUS
 62
     7
 10
-170.49999999979769
 20
157.1971428571868
 30
0.0
 40
6.8028571428571079
 50
40.147715681512921
 51
57.051217221527352
  0
ARC
  5
C1
  8
DATA
  6
CONTINUOUS
 62
     7
 10
-170.49999999979769
 20
157.1971428571868
 30
0.0
 40
6.8028571428571443
 50
71.131724005769414
 51
84.093928529041449
  0
ARC
  5
C2
  8
DATA
  6
CONTINUOUS
 62
     7
 10
-170.49999999979769
 20
157.1971428571868
 30
0.0
 40
6.8028571428571514
 50
95.906071470958068
 51
108.8682759942301
  0
ARC
  5
C3
  8
DATA
  6
CONTINUOUS
 62
     7
 10
-170.49999999979769
 20
157.1971428571868
 30
0.0
 40
6.8028571428571061
 50
122.94878277847219
 51
139.85228431848711
  0
LINE
  5
C4
  8
DATA
  6
CONTINUOUS
 62
     7
 10
-171.1999999997976
 20
159.500000000044
 30
0.0
 11
-171.1999999997976
 21
164.9638898826137
 31
0.0
  0
LINE
  5
C5
  8
DATA
  6
CONTINUOUS
 62
     7
 10
-169.79999999979759
 20
164.9638898826137
 30
0.0
 11
-169.79999999979759
 21
159.500000000044
 31
0.0
  0
LINE
  5
C6
  8
DATA
  6
CONTINUOUS
 62
     7
 10
-168.29999999979759
 20
164.6344454992973
 30
0.0
 11
-168.29999999979759
 21
159.500000000044
 31
0.0
  0
LINE
  5
C7
  8
DATA
  6
CONTINUOUS
 62
     7
 10
-172.6999999997976
 20
159.500000000044
 30
0.0
 11
-172.6999999997976
 21
164.6344454992973
 31
0.0
  0
LINE
  5
C8
  8
DATA
  6
CONTINUOUS
 62
     7
 10
-166.79999999979759
 20
163.90580866507241
 30
0.0
 11
-166.79999999979759
 21
159.500000000044
 31
0.0
  0
LINE
  5
C9
  8
DATA
  6
CONTINUOUS
 62
     7
 10
-174.1999999997976
 20
159.500000000044
 30
0.0
 11
-174.1999999997976
 21
163.90580866507241
 31
0.0
  0
LINE
  5
CA
  8
DATA
  6
CONTINUOUS
 62
     7
 10
-175.6999999997976
 20
159.500000000044
 30
0.0
 11
-175.6999999997976
 21
162.5833559512034
 31
0.0
  0
LINE
  5
CB
  8
DATA
  6
CONTINUOUS
 62
     7
 10
-165.29999999979759
 20
162.5833559512034
 30
0.0
 11
-165.29999999979759
 21
159.500000000044
 31
0.0
  0
LINE
  5
CC
  8
DATA
  6
CONTINUOUS
 62
     7
 10
-175.6999999997976
 20
159.500000000044
 30
0.0
 11
-165.29999999979771
 21
159.500000000044
 31
0.0
  0
LINE
  5
CD
  8
DATA
  6
CONTINUOUS
 62
     7
 10
-173.64999999979759
 20
152.60000000004399
 30
0.0
 11
-167.34999999979769
 21
152.60000000004399
 31
0.0
  0
LINE
  5
CE
  8
DATA
  6
CONTINUOUS
 62
     7
 10
-173.53992805735149
 20
151.70000000004401
 30
0.0
 11
-167.4600719422437
 21
151.70000000004401
 31
0.0
  0
LINE
  5
CF
  8
DATA
  6
CONTINUOUS
 62
     7
 10
-173.3931654674235
 20
150.500000000044
 30
0.0
 11
-167.60683453217169
 21
150.500000000044
 31
0.0
  0
LINE
  5
D0
  8
DATA
  6
CONTINUOUS
 62
     7
 10
-173.2830935249774
 20
149.60000000004399
 30
0.0
 11
-167.7169064746177
 21
149.60000000004399
 31
0.0
  0
LINE
  5
D1
  8
DATA
  6
CONTINUOUS
 62
     7
 10
-173.13633093504939
 20
148.400000000044
 30
0.0
 11
-167.8636690645458
 21
148.400000000044
 31
0.0
  0
LINE
  5
D2
  8
DATA
  6
CONTINUOUS
 62
     7
 10
-173.0262589926034
 20
147.500000000044
 30
0.0
 11
-167.97374100699179
 21
147.500000000044
 31
0.0
  0
LINE
  5
D3
  8
DATA
  6
CONTINUOUS
 62
     7
 10
-173.64999999979759
 20
152.60000000004399
 30
0.0
 11
-173.53992805735149
 21
151.70000000004401
 31
0.0
  0
LINE
  5
D4
  8
DATA
  6
CONTINUOUS
 62
     7
 10
-173.3931654674235
 20
150.500000000044
 30
0.0
 11
-173.28309352497749
 21
149.60000000004399
 31
0.0
  0
LINE
  5
D5
  8
DATA
  6
CONTINUOUS
 62
     7
 10
-173.13633093504939
 20
148.400000000044
 30
0.0
 11
-173.0262589926034
 21
147.500000000044
 31
0.0
  0
LINE
  5
D6
  8
DATA
  6
CONTINUOUS
 62
     7
 10
-167.3499999997976
 20
152.60000000004399
 30
0.0
 11
-167.4600719422437
 21
151.70000000004401
 31
0.0
  0
LINE
  5
D7
  8
DATA
  6
CONTINUOUS
 62
     7
 10
-167.60683453217169
 20
150.500000000044
 30
0.0
 11
-167.71690647461779
 21
149.60000000004399
 31
0.0
  0
LINE
  5
D8
  8
DATA
  6
CONTINUOUS
 62
     7
 10
-167.8636690645458
 20
148.400000000044
 30
0.0
 11
-167.97374100699179
 21
147.500000000044
 31
0.0
  0
CIRCLE
  5
D9
  8
DATA
  6
CONTINUOUS
 62
     7
 10
-170.49999999979769
 20
210.000000000044
 30
0.0
 40
6.7999999999999536
  0
LINE
  5
DA
  8
DATA
  6
CONTINUOUS
 62
     7
 10
-171.1999999997976
 20
203.2361253708097
 30
0.0
 11
-171.1999999997976
 21
216.76387462927849
 31
0.0
  0
LINE
  5
DB
  8
DATA
  6
CONTINUOUS
 62
     7
 10
-169.79999999979759
 20
203.2361253708097
 30
0.0
 11
-169.79999999979759
 21
216.7638746292784
 31
0.0
  0
LINE
  5
DC
  8
DATA
  6
CONTINUOUS
 62
     7
 10
-172.69999999979751
 20
203.56571682318591
 30
0.0
 11
-172.69999999979751
 21
216.4342831769022
 31
0.0
  0
LINE
  5
DD
  8
DATA
  6
CONTINUOUS
 62
     7
 10
-174.1999999997976
 20
204.29473926980569
 30
0.0
 11
-174.1999999997976
 21
215.7052607302825
 31
0.0
  0
LINE
  5
DE
  8
DATA
  6
CONTINUOUS
 62
     7
 10
-175.6999999997976
 20
208.2083527133272
 30
0.0
 11
-175.6999999997976
 21
211.79164728676091
 31
0.0
  0
LINE
  5
DF
  8
DATA
  6
CONTINUOUS
 62
     7
 10
-168.29999999979759
 20
203.56571682318591
 30
0.0
 11
-168.29999999979759
 21
216.4342831769022
 31
0.0
  0
LINE
  5
E0
  8
DATA
  6
CONTINUOUS
 62
     7
 10
-166.79999999979759
 20
204.29473926980569
 30
0.0
 11
-166.79999999979759
 21
215.7052607302825
 31
0.0
  0
LINE
  5
E1
  8
DATA
  6
CONTINUOUS
 62
     7
 10
-165.29999999979759
 20
208.2083527133272
 30
0.0
 11
-165.29999999979759
 21
211.79164728676091
 31
0.0
  0
ARC
  5
E2
  8
DATA
  6
CONTINUOUS
 62
     7
 10
-170.49999999979741
 20
210.00000000004121
 30
0.0
 40
5.5000000000028688
 50
97.312021926265956
 51
113.5781784781914
  0
ARC
  5
E3
  8
DATA
  6
CONTINUOUS
 62
     7
 10
-170.49999999979741
 20
210.00000000004121
 30
0.0
 40
5.5000000000028413
 50
132.27790759881989
 51
227.72209240118011
  0
ARC
  5
E4
  8
DATA
  6
CONTINUOUS
 62
     7
 10
-170.49999999979741
 20
210.00000000004121
 30
0.0
 40
5.5000000000028431
 50
246.42182152180831
 51
262.6879780737334
  0
ARC
  5
E5
  8
DATA
  6
CONTINUOUS
 62
     7
 10
-170.49999999979741
 20
210.00000000004121
 30
0.0
 40
5.5000000000028599
 50
277.31202192626063
 51
293.57817847818518
  0
ARC
  5
E6
  8
DATA
  6
CONTINUOUS
 62
     7
 10
-170.49999999979741
 20
210.00000000004121
 30
0.0
 40
5.5000000000028351
 50
312.27790759881282
 51
47.722092401188007
  0
ARC
  5
E7
  8
DATA
  6
CONTINUOUS
 62
     7
 10
-170.49999999979741
 20
210.00000000004121
 30
0.0
 40
5.500000000002899
 50
66.42182152181438
 51
82.687978073739487
  0
LINE
  5
E8
  8
DATA
  6
STYLE_05
 62
     7
 10
-184.4999999997975
 20
142.97784790061451
 30
0.0
 11
-184.4999999997975
 21
156.3457716463418
 31
0.0
  0
LINE
  5
E9
  8
DATA
  6
STYLE_05
 62
     7
 10
-160.49999999979769
 20
134.9602142390662
 30
0.0
 11
-180.49999999979761
 21
134.9602142390662
 31
0.0
  0
LINE
  5
EA
  8
DATA
  6
STYLE_05
 62
     7
 10
-156.49999999979781
 20
156.3457716463418
 30
0.0
 11
-156.49999999979781
 21
142.97784790061419
 31
0.0
  0
CIRCLE
  5
EB
  8
DATA
  6
STYLE_05
 62
     7
 10
-170.49999999979769
 20
210.000000000044
 30
0.0
 40
13.99999999999989
  0
ARC
  5
EC
  8
DATA
  6
STYLE_05
 62
     7
 10
-173.95745157976779
 20
143.23091121085949
 30
0.0
 40
10.54558524822893
 50
181.3750637120784
 51
231.65418307505249
  0
ARC
  5
ED
  8
DATA
  6
STYLE_05
 62
     7
 10
-167.0425484198274
 20
143.23091121085949
 30
0.0
 40
10.545585248228971
 50
308.3458169249476
 51
358.62493628792163
  0
ARC
  5
EE
  8
DATA
  6
STYLE_05
 62
     7
 10
-164.4145617127634
 20
153.53684256949271
 30
0.0
 40
20.568644245182291
 50
111.5745939268444
 51
155.04105840692591
  0
ARC
  5
EF
  8
DATA
  6
STYLE_05
 62
     7
 10
-176.58543828683179
 20
153.53684256949271
 30
0.0
 40
20.568644245182242
 50
24.958941593074531
 51
69.546977085883583
  0
LINE
  5
F0
  8
DATA
  6
STYLE_05
 62
     7
 10
-170.413718533859
 20
172.94000000004399
 30
0.0
 11
-170.49999999979809
 21
172.94000000004399
 31
0.0
  0
ARC
  5
F1
  8
DATA
  6
STYLE_05
 62
     7
 10
-170.45685926682859
 20
168.6076432377981
 30
0.0
 40
4.3325715502711564
 50
75.853174822942293
 51
110.5528980140955
  0
ARC
  5
F2
  8
DATA
  6
STYLE_05
 62
     7
 10
-155.34534923808181
 20
152.31688667660461
 30
0.0
 40
29.43171036717013
 50
160.34550551702711
 51
172.1321193015375
  0
ARC
  5
F3
  8
DATA
  6
STYLE_05
 62
     7
 10
-185.65465076151361
 20
152.31688667660461
 30
0.0
 40
29.431710367170162
 50
7.8678806984623932
 51
19.654494482972801
  0
LINE
  5
F4
  8
DATA
  6
CONTINUOUS
 62
     7
 10
-167.97058823509181
 20
-310.99999999995578
 30
0.0
 11
-167.49999999979769
 21
-310.93388429747648
 31
0.0
  0
LINE
  5
F5
  8
DATA
  6
CONTINUOUS
 62
     7
 10
-173.49999999979761
 20
-308.77685950408812
 30
0.0
 11
-167.49999999979769
 21
-307.93388429747648
 31
0.0
  0
LINE
  5
F6
  8
DATA
  6
CONTINUOUS
 62
     7
 10
-173.49999999979761
 20
-305.77685950408812
 30
0.0
 11
-167.49999999979769
 21
-304.93388429747648
 31
0.0
  0
LINE
  5
F7
  8
DATA
  6
CONTINUOUS
 62
     7
 10
-173.49999999979761
 20
-302.77685950408812
 30
0.0
 11
-167.49999999979769
 21
-301.93388429747648
 31
0.0
  0
LINE
  5
F8
  8
DATA
  6
CONTINUOUS
 62
     7
 10
-173.49999999979761
 20
-299.77685950408812
 30
0.0
 11
-167.49999999979769
 21
-298.93388429747648
 31
0.0
  0
LINE
  5
F9
  8
DATA
  6
CONTINUOUS
 62
     7
 10
-173.49999999979761
 20
-296.77685950408801
 30
0.0
 11
-167.49999999979769
 21
-295.93388429747648
 31
0.0
  0
LINE
  5
FA
  8
DATA
  6
CONTINUOUS
 62
     7
 10
-173.49999999979761
 20
-293.77685950408812
 30
0.0
 11
-167.49999999979769
 21
-292.93388429747648
 31
0.0
  0
LINE
  5
FB
  8
DATA
  6
CONTINUOUS
 62
     7
 10
-173.49999999979761
 20
-290.77685950408812
 30
0.0
 11
-167.49999999979769
 21
-289.93388429747648
 31
0.0
  0
LINE
  5
FC
  8
DATA
  6
CONTINUOUS
 62
     7
 10
-173.49999999979761
 20
-287.77685950408812
 30
0.0
 11
-167.49999999979769
 21
-286.93388429747648
 31
0.0
  0
LINE
  5
FD
  8
DATA
  6
CONTINUOUS
 62
     7
 10
-173.49999999979761
 20
-284.77685950408812
 30
0.0
 11
-167.49999999979769
 21
-283.93388429747648
 31
0.0
  0
LINE
  5
FE
  8
DATA
  6
CONTINUOUS
 62
     7
 10
-173.49999999979761
 20
-281.77685950408812
 30
0.0
 11
-167.49999999979769
 21
-280.93388429747648
 31
0.0
  0
LINE
  5
FF
  8
DATA
  6
CONTINUOUS
 62
     7
 10
-173.49999999979761
 20
-278.77685950408812
 30
0.0
 11
-167.49999999979769
 21
-277.93388429747648
 31
0.0
  0
LINE
  5
100
  8
DATA
  6
CONTINUOUS
 62
     7
 10
-173.49999999979761
 20
-275.77685950408812
 30
0.0
 11
-167.49999999979769
 21
-274.93388429747648
 31
0.0
  0
LINE
  5
101
  8
DATA
  6
CONTINUOUS
 62
     7
 10
-173.49999999979761
 20
-272.77685950408812
 30
0.0
 11
-167.49999999979769
 21
-271.93388429747648
 31
0.0
  0
LINE
  5
102
  8
DATA
  6
CONTINUOUS
 62
     7
 10
-173.49999999979761
 20
-269.77685950408812
 30
0.0
 11
-167.49999999979769
 21
-268.93388429747648
 31
0.0
  0
LINE
  5
103
  8
DATA
  6
CONTINUOUS
 62
     7
 10
-173.49999999979761
 20
-266.77685950408812
 30
0.0
 11
-167.49999999979769
 21
-265.93388429747648
 31
0.0
  0
LINE
  5
104
  8
DATA
  6
CONTINUOUS
 62
     7
 10
-173.49999999979761
 20
-263.77685950408812
 30
0.0
 11
-167.49999999979769
 21
-262.93388429747648
 31
0.0
  0
LINE
  5
105
  8
DATA
  6
CONTINUOUS
 62
     7
 10
-173.49999999979761
 20
-260.77685950408812
 30
0.0
 11
-167.49999999979769
 21
-259.93388429747648
 31
0.0
  0
LINE
  5
106
  8
DATA
  6
CONTINUOUS
 62
     7
 10
-173.49999999979761
 20
-257.77685950408812
 30
0.0
 11
-167.49999999979769
 21
-256.93388429747648
 31
0.0
  0
LINE
  5
107
  8
DATA
  6
CONTINUOUS
 62
     7
 10
-173.49999999979761
 20
-254.77685950408801
 30
0.0
 11
-167.49999999979769
 21
-253.9338842974764
 31
0.0
  0
LINE
  5
108
  8
DATA
  6
CONTINUOUS
 62
     7
 10
-173.49999999979761
 20
-251.77685950408801
 30
0.0
 11
-167.49999999979769
 21
-250.9338842974764
 31
0.0
  0
LINE
  5
109
  8
DATA
  6
CONTINUOUS
 62
     7
 10
-173.49999999979761
 20
-248.77685950408801
 30
0.0
 11
-167.49999999979769
 21
-247.9338842974764
 31
0.0
  0
TEXT
  5
10A
  8
DATA
 62
     7
 10
-109.92351878654181
 20
204.1111068644741
 30
0.0
 40
8.1442057291666661
  1
ウインドスクリーン
 41
0.7
 11
-109.92351878654181
 21
212.2553125936407
 31
0.0
 73
     3
  0
LINE
  5
10B
  8
DATA
  6
CONTINUOUS
 62
     7
 10
-159.50723147791089
 20
165.0
 30
0.0
 11
-115.0
 21
200.0
 31
0.0
  0
LINE
  5
10C
  8
DATA
  6
CONTINUOUS
 62
     7
 10
-159.50723147791089
 20
165.0
 30
0.0
 11
-149.616395937005
 21
178.12558208605819
 31
0.0
  0
LINE
  5
10D
  8
DATA
  6
CONTINUOUS
 62
     7
 10
-159.50723147791089
 20
165.0
 30
0.0
 11
-144.37872559180329
 21
171.42166975553141
 31
0.0
  0
LINE
  5
10E
  8
DATA
  6
CONTINUOUS
 62
     7
 10
-115.0
 20
200.0
 30
0.0
 11
-10.0
 21
200.0
 31
0.0
  0
LINE
  5
10F
  8
DATA
  6
CONTINUOUS
 62
     7
 10
-59.999999999797581
 20
-419.99999999995578
 30
0.0
 11
-59.999999999797581
 21
-354.03015018272379
 31
0.0
  0
LINE
  5
110
  8
DATA
  6
CONTINUOUS
 62
     7
 10
-40.999999999797737
 20
-419.99999999995578
 30
0.0
 11
-59.999999999797581
 21
-419.99999999995578
 31
0.0
  0
LINE
  5
111
  8
DATA
  6
CONTINUOUS
 62
     7
 10
-53.499999999797637
 20
-288.49820412673779
 30
0.0
 11
-53.499999999797637
 21
-310.99999999995578
 31
0.0
  0
LINE
  5
112
  8
DATA
  6
CONTINUOUS
 62
     7
 10
-47.499999999797701
 20
-290.98348550097643
 30
0.0
 11
-47.499999999797701
 21
-310.99999999995578
 31
0.0
  0
LINE
  5
113
  8
DATA
  6
CONTINUOUS
 62
     7
 10
-55.09999999979766
 20
-310.99999999995578
 30
0.0
 11
-45.899999999797672
 21
-310.99999999995578
 31
0.0
  0
LINE
  5
114
  8
DATA
  6
CONTINUOUS
 62
     7
 10
-59.594975121597429
 20
-345.99025370577442
 30
0.0
 11
-59.090970526735987
 21
-341.0006082166459
 31
0.0
  0
ARC
  5
115
  8
DATA
  6
CONTINUOUS
 62
     7
 10
-870.14499999975988
 20
-202.25727272723569
 30
0.0
 40
822.76716188040632
 50
350.43111332651512
 51
351.41338444162358
  0
ARC
  5
116
  8
DATA
  6
CONTINUOUS
 62
     7
 10
-114.95357142836779
 20
-311.13214285709881
 30
0.0
 40
60.002002730179761
 50
346.53862234905949
 51
355.9690531258301
  0
LINE
  5
117
  8
DATA
  6
CONTINUOUS
 62
     7
 10
-55.09999999979766
 20
-315.3499999999558
 30
0.0
 11
-55.09999999979766
 21
-310.99999999995578
 31
0.0
  0
ARC
  5
118
  8
DATA
  6
CONTINUOUS
 62
     7
 10
-29.24285485609337
 20
-344.01556939549857
 30
0.0
 40
29.99999999996751
 50
170.43111332651091
 51
174.23211110208581
  0
ARC
  5
119
  8
DATA
  6
CONTINUOUS
 62
     7
 10
20.000000000202078
 20
-354.03015018272379
 30
0.0
 40
79.999999999999659
 50
174.2321111020859
 51
180.0
  0
LINE
  5
11A
  8
DATA
  6
CONTINUOUS
 62
     7
 10
-40.999999999797737
 20
-419.99999999995578
 30
0.0
 11
-40.999999999797737
 21
-354.03015018272379
 31
0.0
  0
LINE
  5
11B
  8
DATA
  6
CONTINUOUS
 62
     7
 10
-41.40502487799791
 20
-345.99025370577442
 30
0.0
 11
-41.909029472859352
 21
-341.0006082166459
 31
0.0
  0
ARC
  5
11C
  8
DATA
  6
CONTINUOUS
 62
     7
 10
769.14500000016642
 20
-202.25727272723569
 30
0.0
 40
822.76716188040803
 50
188.58661555837639
 51
189.56888667348491
  0
ARC
  5
11D
  8
DATA
  6
CONTINUOUS
 62
     7
 10
13.95357142877228
 20
-311.13214285709881
 30
0.0
 40
60.002002730179562
 50
184.0309468741699
 51
193.46137765094051
  0
LINE
  5
11E
  8
DATA
  6
CONTINUOUS
 62
     7
 10
-45.899999999797672
 20
-315.3499999999558
 30
0.0
 11
-45.899999999797672
 21
-310.99999999995578
 31
0.0
  0
ARC
  5
11F
  8
DATA
  6
CONTINUOUS
 62
     7
 10
-71.757145143502044
 20
-344.01556939549857
 30
0.0
 40
29.999999999967589
 50
5.767888897914121
 51
9.5688866734891391
  0
ARC
  5
120
  8
DATA
  6
CONTINUOUS
 62
     7
 10
-120.9999999997975
 20
-354.03015018272379
 30
0.0
 40
79.999999999999844
 50
0.0000000000000568
 51
5.7678888979140748
  0
LINE
  5
121
  8
DATA
  6
CONTINUOUS
 62
     7
 10
-18.621864950067501
 20
-238.64807779354359
 30
0.0
 11
-11.83363985067672
 21
-245.43630289293441
 31
0.0
  0
LINE
  5
122
  8
DATA
  6
CONTINUOUS
 62
     7
 10
3.864130691664621
 20
-218.7076665640829
 30
0.0
 11
8.1067713787838809
 21
-222.9503072512021
 31
0.0
  0
LINE
  5
123
  8
DATA
  6
CONTINUOUS
 62
     7
 10
-18.621864950067501
 20
-238.64807779354359
 30
0.0
 11
-15.08633104413479
 21
-235.1125438876108
 31
0.0
  0
LINE
  5
124
  8
DATA
  6
CONTINUOUS
 62
     7
 10
-11.83363985067672
 20
-245.43630289293441
 30
0.0
 11
-8.2981059447440089
 21
-241.90076898700161
 31
0.0
  0
ARC
  5
125
  8
DATA
  6
CONTINUOUS
 62
     7
 10
99.474479032927931
 20
-348.30206741574182
 30
0.0
 40
161.04672440642241
 50
126.4186464218741
 51
135.3449741701485
  0
LINE
  5
126
  8
DATA
  6
CONTINUOUS
 62
     7
 10
-11.83363985067672
 20
-245.43630289293441
 30
0.0
 11
-8.2981059447440089
 21
-241.90076898700161
 31
0.0
  0
ARC
  5
127
  8
DATA
  6
CONTINUOUS
 62
     7
 10
-121.4876294728757
 20
-127.3399589099384
 30
0.0
 40
161.04672440642329
 50
314.65502582985141
 51
323.58135357812603
  0
LINE
  5
128
  8
DATA
  6
CONTINUOUS
 62
     7
 10
243.5733295139041
 20
21.001532258156629
 30
0.0
 11
247.81597020102339
 21
16.75889157103737
 31
0.0
  0
LINE
  5
129
  8
DATA
  6
CONTINUOUS
 62
     7
 10
3.864130691664621
 20
-218.7076665640829
 30
0.0
 11
243.5733295139041
 21
21.001532258156629
 31
0.0
  0
LINE
  5
12A
  8
DATA
  6
CONTINUOUS
 62
     7
 10
247.81597020102339
 20
16.75889157103737
 30
0.0
 11
8.1067713787838809
 21
-222.9503072512021
 31
0.0
  0
LINE
  5
12B
  8
DATA
  6
CONTINUOUS
 62
     7
 10
266.34216786811072
 20
49.144382149381151
 30
0.0
 11
275.95882009224772
 21
39.527729925244152
 31
0.0
  0
ARC
  5
12C
  8
DATA
  6
CONTINUOUS
 62
     7
 10
271.28989503132738
 20
44.475457088460857
 30
0.0
 40
6.802857142857067
 50
313.33936902748422
 51
355.14771568151258
  0
ARC
  5
12D
  8
DATA
  6
CONTINUOUS
 62
     7
 10
271.28989503132738
 20
44.475457088460857
 30
0.0
 40
6.8028571428571123
 50
94.852284318487435
 51
136.66063097251569
  0
LINE
  5
12E
  8
DATA
  6
CONTINUOUS
 62
     7
 10
266.05932515563609
 20
48.861539436906497
 30
0.0
 11
275.67597737977309
 21
39.244887212769562
 31
0.0
  0
ARC
  5
12F
  8
DATA
  6
CONTINUOUS
 62
     7
 10
-708.13218340113542
 20
890.12912652842977
 30
0.0
 40
1288.8468328063309
 50
317.5966830274777
 51
318.65630602218641
  0
ARC
  5
130
  8
DATA
  6
CONTINUOUS
 62
     7
 10
224.30916337828779
 20
68.819549152606655
 30
0.0
 40
46.275243492030867
 50
319.47350250525471
 51
334.45060029007738
  0
LINE
  5
131
  8
DATA
  6
CONTINUOUS
 62
     7
 10
266.56921341014601
 20
48.917336607345817
 30
0.0
 11
266.28637069767137
 21
48.634493894871241
 31
0.0
  0
ARC
  5
132
  8
DATA
  6
CONTINUOUS
 62
     7
 10
1116.943564471298
 20
-934.9466213440038
 30
0.0
 40
1288.8468328063341
 50
131.34369397781359
 51
132.4033169725223
  0
ARC
  5
133
  8
DATA
  6
CONTINUOUS
 62
     7
 10
295.63398709547312
 20
-2.5052745645787842
 30
0.0
 40
46.275243492030718
 50
115.5493997099223
 51
130.52649749474531
  0
LINE
  5
134
  8
DATA
  6
CONTINUOUS
 62
     7
 10
275.73177455021238
 20
39.754775467279437
 30
0.0
 11
275.4489318377378
 21
39.471932754804847
 31
0.0
  0
LINE
  5
135
  8
DATA
  6
CONTINUOUS
 62
     7
 10
265.10473100103428
 20
42.745065779642907
 30
0.0
 11
269.55950372250942
 21
38.29029305816772
 31
0.0
  0
LINE
  5
136
  8
DATA
  6
CONTINUOUS
 62
     7
 10
264.5461675148884
 20
42.030837059653038
 30
0.0
 11
268.8452750025196
 21
37.731729572021749
 31
0.0
  0
LINE
  5
137
  8
DATA
  6
CONTINUOUS
 62
     7
 10
263.80141620002712
 20
41.078532099666518
 30
0.0
 11
267.89297004253319
 21
36.986978257160487
 31
0.0
  0
LINE
  5
138
  8
DATA
  6
CONTINUOUS
 62
     7
 10
263.24285271388118
 20
40.364303379676691
 30
0.0
 11
267.17874132254332
 21
36.428414771014587
 31
0.0
  0
LINE
  5
139
  8
DATA
  6
CONTINUOUS
 62
     7
 10
262.49810139902002
 20
39.411998419690171
 30
0.0
 11
266.2264363625568
 21
35.683663456153397
 31
0.0
  0
LINE
  5
13A
  8
DATA
  6
CONTINUOUS
 62
     7
 10
261.93953791287402
 20
38.697769699700331
 30
0.0
 11
265.51220764256692
 21
35.125099970007433
 31
0.0
  0
LINE
  5
13B
  8
DATA
  6
CONTINUOUS
 62
     7
 10
265.10473100103428
 20
42.745065779642907
 30
0.0
 11
264.5461675148884
 21
42.030837059653038
 31
0.0
  0
LINE
  5
13C
  8
DATA
  6
CONTINUOUS
 62
     7
 10
263.80141620002712
 20
41.078532099666518
 30
0.0
 11
263.24285271388118
 21
40.36430337967672
 31
0.0
  0
LINE
  5
13D
  8
DATA
  6
CONTINUOUS
 62
     7
 10
262.49810139902002
 20
39.411998419690242
 30
0.0
 11
261.93953791287402
 21
38.697769699700331
 31
0.0
  0
LINE
  5
13E
  8
DATA
  6
CONTINUOUS
 62
     7
 10
269.55950372250948
 20
38.290293058167691
 30
0.0
 11
268.8452750025196
 21
37.731729572021749
 31
0.0
  0
LINE
  5
13F
  8
DATA
  6
CONTINUOUS
 62
     7
 10
267.89297004253319
 20
36.986978257160487
 30
0.0
 11
267.17874132254332
 21
36.428414771014651
 31
0.0
  0
LINE
  5
140
  8
DATA
  6
CONTINUOUS
 62
     7
 10
266.2264363625568
 20
35.683663456153397
 30
0.0
 11
265.51220764256692
 21
35.125099970007433
 31
0.0
  0
LINE
  5
141
  8
DATA
  6
STYLE_05
 62
     7
 10
250.6287334260455
 20
43.61328535640196
 30
0.0
 11
260.08128295703381
 21
53.065834887390402
 31
0.0
  0
LINE
  5
142
  8
DATA
  6
STYLE_05
 62
     7
 10
261.92997304337189
 20
20.973399476774599
 30
0.0
 11
247.78783741964131
 21
35.115535100505411
 31
0.0
  0
LINE
  5
143
  8
DATA
  6
STYLE_05
 62
     7
 10
279.8802728302569
 20
33.266845014167188
 30
0.0
 11
270.42772329926828
 21
23.814295483178601
 31
0.0
  0
ARC
  5
144
  8
DATA
  6
STYLE_05
 62
     7
 10
258.2623836875797
 20
36.337520660355153
 30
0.0
 40
10.545585248228941
 50
136.37506371207829
 51
186.6541830750524
  0
ARC
  5
145
  8
DATA
  6
STYLE_05
 62
     7
 10
263.15195860322171
 20
31.447945744713032
 30
0.0
 40
10.545585248228949
 50
263.34581692494748
 51
313.62493628792163
  0
ARC
  5
146
  8
DATA
  6
STYLE_05
 62
     7
 10
272.29761977478728
 20
36.877072473412603
 30
0.0
 40
20.568644245182291
 50
66.574593926844358
 51
110.0410584069258
  0
ARC
  5
147
  8
DATA
  6
STYLE_05
 62
     7
 10
263.69151041627907
 20
45.483181831920817
 30
0.0
 40
20.568644245182242
 50
339.95894159307448
 51
24.546977085883551
  0
LINE
  5
148
  8
DATA
  6
STYLE_05
 62
     7
 10
281.77567950076218
 20
54.83922113858381
 30
0.0
 11
281.71466929110591
 21
54.900231348240062
 31
0.0
  0
ARC
  5
149
  8
DATA
  6
STYLE_05
 62
     7
 10
278.68173555083052
 20
51.806287398308449
 30
0.0
 40
4.3325715502711732
 50
30.853174822942151
 51
65.552898014095277
  0
ARC
  5
14A
  8
DATA
  6
STYLE_05
 62
     7
 10
277.84788233104678
 20
29.60153174793388
 30
0.0
 40
29.43171036717014
 50
115.34550551702721
 51
127.1321193015376
  0
ARC
  5
14B
  8
DATA
  6
STYLE_05
 62
     7
 10
256.41596969080058
 20
51.033444388180278
 30
0.0
 40
29.43171036716997
 50
322.86788069846222
 51
334.65449448297272
  0
LINE
  5
14C
  8
DATA
  6
CONTINUOUS
 62
     7
 10
-47.970588235091853
 20
-310.99999999995578
 30
0.0
 11
-47.499999999797701
 21
-310.93388429747648
 31
0.0
  0
LINE
  5
14D
  8
DATA
  6
CONTINUOUS
 62
     7
 10
-53.499999999797637
 20
-308.77685950408812
 30
0.0
 11
-47.499999999797701
 21
-307.93388429747648
 31
0.0
  0
LINE
  5
14E
  8
DATA
  6
CONTINUOUS
 62
     7
 10
-53.499999999797637
 20
-305.77685950408812
 30
0.0
 11
-47.499999999797701
 21
-304.93388429747648
 31
0.0
  0
LINE
  5
14F
  8
DATA
  6
CONTINUOUS
 62
     7
 10
-53.499999999797637
 20
-302.77685950408812
 30
0.0
 11
-47.499999999797701
 21
-301.93388429747648
 31
0.0
  0
LINE
  5
150
  8
DATA
  6
CONTINUOUS
 62
     7
 10
-53.499999999797637
 20
-299.77685950408812
 30
0.0
 11
-47.499999999797701
 21
-298.93388429747648
 31
0.0
  0
LINE
  5
151
  8
DATA
  6
CONTINUOUS
 62
     7
 10
-53.499999999797637
 20
-296.77685950408801
 30
0.0
 11
-47.499999999797701
 21
-295.93388429747648
 31
0.0
  0
LINE
  5
152
  8
DATA
  6
CONTINUOUS
 62
     7
 10
-53.499999999797637
 20
-293.77685950408812
 30
0.0
 11
-47.499999999797701
 21
-292.93388429747648
 31
0.0
  0
LINE
  5
153
  8
DATA
  6
CONTINUOUS
 62
     7
 10
-53.499999999797637
 20
-290.77685950408812
 30
0.0
 11
-47.499999999797701
 21
-289.93388429747648
 31
0.0
  0
LINE
  5
154
  8
DATA
  6
CONTINUOUS
 62
     7
 10
-53.499999999797637
 20
-287.77685950408812
 30
0.0
 11
-47.22003721469143
 21
-286.89455068303988
 31
0.0
  0
LINE
  5
155
  8
DATA
  6
CONTINUOUS
 62
     7
 10
-53.264137180341642
 20
-284.74372175259418
 30
0.0
 11
-46.630140759826361
 21
-283.81167266872001
 31
0.0
  0
LINE
  5
156
  8
DATA
  6
CONTINUOUS
 62
     7
 10
-41.940025927675549
 20
-264.51182318342291
 30
0.0
 11
-37.101311755589109
 21
-268.15839038557488
 31
0.0
  0
LINE
  5
157
  8
DATA
  6
CONTINUOUS
 62
     7
 10
-39.818705584115889
 20
-262.39050283986319
 30
0.0
 11
-34.979991412029449
 21
-266.03707004201527
 31
0.0
  0
LINE
  5
158
  8
DATA
  6
CONTINUOUS
 62
     7
 10
-37.697385240556287
 20
-260.2691824963037
 30
0.0
 11
-32.85867106846986
 21
-263.91574969845573
 31
0.0
  0
LINE
  5
159
  8
DATA
  6
CONTINUOUS
 62
     7
 10
-35.576064896996641
 20
-258.1478621527441
 30
0.0
 11
-30.73735072491019
 21
-261.79442935489601
 31
0.0
  0
LINE
  5
15A
  8
DATA
  6
CONTINUOUS
 62
     7
 10
-33.454744553436967
 20
-256.02654180918449
 30
0.0
 11
-28.61603038135053
 21
-259.67310901133652
 31
0.0
  0
LINE
  5
15B
  8
DATA
  6
CONTINUOUS
 62
     7
 10
-31.333424209877311
 20
-253.90522146562489
 30
0.0
 11
-26.49471003779087
 21
-257.55178866777692
 31
0.0
  0
LINE
  5
15C
  8
DATA
  6
CONTINUOUS
 62
     7
 10
-29.212103866317701
 20
-251.7839011220652
 30
0.0
 11
-24.373389694231271
 21
-255.43046832421729
 31
0.0
  0
LINE
  5
15D
  8
DATA
  6
CONTINUOUS
 62
     7
 10
-27.090783522758048
 20
-249.6625807785056
 30
0.0
 11
-22.252069350671611
 21
-253.30914798065771
 31
0.0
  0
LINE
  5
15E
  8
DATA
  6
CONTINUOUS
 62
     7
 10
-24.969463179198389
 20
-247.541260434946
 30
0.0
 11
-20.130749007111941
 21
-251.187827637098
 31
0.0
  0
LINE
  5
15F
  8
DATA
  6
CONTINUOUS
 62
     7
 10
-22.848142835638729
 20
-245.41994009138631
 30
0.0
 11
-18.009428663552281
 21
-249.06650729353839
 31
0.0
  0
LINE
  5
160
  8
DATA
  6
CONTINUOUS
 62
     7
 10
-20.72682249207913
 20
-243.29861974782659
 30
0.0
 11
-15.88810831999268
 21
-246.94518694997879
 31
0.0
  0
LINE
  5
161
  8
DATA
  6
CONTINUOUS
 62
     7
 10
-18.60550214851947
 20
-241.1772994042669
 30
0.0
 11
-13.766787976433021
 21
-244.8238666064191
 31
0.0
  0
LINE
  5
162
  8
DATA
  6
CONTINUOUS
 62
     7
 10
-44.713203435394149
 20
-267.28500069114148
 30
0.0
 11
-17.349072743931959
 21
-239.9208699996791
 31
0.0
  0
LINE
  5
163
  8
DATA
  6
CONTINUOUS
 62
     7
 10
-38.713203435394107
 20
-269.77028206538
 30
0.0
 11
-13.106432056812629
 21
-244.16351068679839
 31
0.0
  0
ARC
  5
164
  8
DATA
  6
CONTINUOUS
 62
     7
 10
-17.499999999797691
 20
-290.98348550097643
 30
0.0
 40
30.00000000000005
 50
134.99999999999989
 51
179.99999999999989
  0
ARC
  5
165
  8
DATA
  6
CONTINUOUS
 62
     7
 10
-23.499999999797641
 20
-288.49820412673768
 30
0.0
 40
29.99999999999995
 50
135.00000000000031
 51
180.00000000000011
  0
LINE
  5
166
  8
DATA
  6
CONTINUOUS
 62
     7
 10
-44.499420197816661
 20
-267.07121745356409
 30
0.0
 11
-39.622388252610847
 21
-270.72021977227922
 31
0.0
  0
LINE
  5
167
  8
DATA
  6
CONTINUOUS
 62
     7
 10
-47.101830519984418
 20
-269.97919777930173
 30
0.0
 11
-42.017352699993808
 21
-273.69477772467951
 31
0.0
  0
ARC
  5
168
  8
DATA
  6
CONTINUOUS
 62
     7
 10
271.30876245019931
 20
44.481185970404148
 30
0.0
 40
6.7961338338812887
 50
355.09423655526223
 51
95.139147152650935
  0
LINE
  5
169
  8
DATA
  6
CONTINUOUS
 62
     7
 10
-44.058029632734623
 20
-277.03102829745683
 30
0.0
 11
-49.778324832932292
 21
-274.0258289255396
 31
0.0
  0
LINE
  5
16A
  8
DATA
  6
CONTINUOUS
 62
     7
 10
-45.216385975136312
 20
-279.50298253002359
 30
0.0
 11
-51.626379336936381
 21
-278.06236274315148
 31
0.0
  0
LINE
  5
16B
  8
DATA
  6
CONTINUOUS
 62
     7
 10
-46.043448064523531
 20
-281.74922469805881
 30
0.0
 11
-52.521729902630661
 21
-280.89957310220427
 31
0.0
  0
ENDSEC
  0
EOF
